Nabin K Bhattarai
Aakhama Timilai Pauchhu
Nabin K Bhattarai
Nabin K Bhattarai
  • 88 credits
  • 2 years ago

Ad Placement

Place your ad here. Contact us tunesnepal@gmail.com

Lyrics
(Aankhama timilai pauchu ma dherai dherai) x2
(Sapanima timilai pauchu nindrai bhari) x2
(Jalai afulai dekhauna ma sakdina) x2
(Maya timilai garchu ma dherai dherai) x2

Verse:1

(Liyi timilai hidne chu ma sadhai sadhai) x2
(Angaloma timilai rakhne chu ma sadhai sadhai) x2
(Tukryai afailai jodna ma sakdina) x2
(Maya timilai garchu ma dherai dherai) x2

(Jalai afulai dekhauna ma sakdina) x2
Maya timilai ma garchu dherai dherai
Chords
{start_of_tab}
E|----------------------------------------------|
B|-8-7h8-8p7---------8-10-8---12s13-12----------|
G|-----------9p7-9-9--------9------------10br-8-|
D|----------------------------------------------|
{end_of_tab}
A|----------------------------------------------|
E|----------------------------------------------|


[G]Ankhama timi[Am]lai paaun[C]chu ma dhe[Bm]rai dhe[G]rai
[G]Sapanima timi[Am]lai paaun[C]chu nin[Bm]drai bha[G]ri
Jala[C]i aaphu[Am]lai dhekhau[D]na ma sakdi[G]na
[G]Maya timi[Am]lai gar[C]chu ma dhe[Bm]rai dhe[G]rai



{start_of_tab}
E|--------------------------------------------10-8-7--------|
B|-10b-8-10-8-10s12-10-8-8h10-8---13-12h13-12--------10br-8-|
G|----------------------------------------------------------|
D|----------------------------------------------------------|
{end_of_tab}
A|----------------------------------------------------------|
E|----------------------------------------------------------|


{start_of_tab}
E|------------------------------------10----10s12------------|
B|-----10br-8-10-12-13-12-10-12-13p12----13-------13-12-10br-|
G|-7-9-------------------------------------------------------|
D|-----------------------------------------------------------|
{end_of_tab}
A|-----------------------------------------------------------|
E|-----------------------------------------------------------|

[G]Liyi timi[Am]lai hidne [C]chu ma sa[Bm]dhai sa[G]dhai
[G]Angaloma timi[Bm]lai rakhne [C]chu ma sa[Bm]dhai sa[G]dhai
Tukra[C]i aaphai[Am]lai jod[D]na ma sakdi[G]na
Ma[G]ya timi[Am]lai gar[C]chu ma dhe[Bm]rai dhe[G]rai

Ad Placement

Place your ad here. Contact us tunesnepal@gmail.com

Feel free to comment
Banner Ad

Place your ad here. Contact us tunesnepal@gmail.com

Image Here
THE TOP 50 Lyrics
THE TOP LYRICS

Click below to view the top 50 most popular lyrics

Top Lyrics
Image Here
THE TOP 50 Chords
THE TOP CHORDS

Click below to view the top 50 most popular chords

Top Chords
Image Here
THE TOP 50 Artists
THE TOP ARTISTS

Click below to view the top 50 most popular artists

Top Artists
Footer Top Ad

Place your ad here. Contact us tunesnepal@gmail.com