Nabin K Bhattarai
Raat Bityo
Nabin K Bhattarai
Nabin K Bhattarai
  • 88 credits
  • 1 year ago

Ad Placement

Place your ad here. Contact us tunesnepal@gmail.com

Lyrics
(Raat bityo hera timilai samjhera 
Din chadhyo hera timilai kalpera) x2
Junle sodhyo yo ke bho bhanera
Taara gijyai diyo pagal thanera
Swikarchu jasle je bhane ni
Timile bahek je chane ni
Raat bityo hera timilai samjhera
Din chadhyo hera timilai kalpera

Verse:1

(Gulaf le Sodhin uni ko hun bhera
Bhane maya meri dil kholera) x2
Nahunu tadha priye ke bho bhanera
Bhanne chu timi maya timilai bhetera

Verse:2

Swikarchu jasle je bhane ni
Timile bahek je chane ni
(Raat bityo hera timilai samjhera
Din chadhyo hera timilai kalpera) x3
(Swikarchu jasle je bhane ni
Timile bahek je chane ni) x3
Chords
Intro Solo
{start_of_tab}
E|----------------------------
A|----------------------------
D|---------------5-7-5-7p-7-5-
G|-----------5-7--------------
{end_of_tab}
B|-----3-5s7------------------
e|-3h5------------------------

E|------------------------
A|------------------------
[D|-7p-7-----5-----5-7-7s9-]
G|------5h7---5h7---------
B|------------------------
e|------------------------

E|------------------------------
[A|-8s10-8-----------------------]
D|--------9s7-5-7---5-----------
G|----------------7---5h7---5---
B|------------------------7---7-
e|------------------------------

{start_of_tab}
E|--------------------------------8s-
A|------------------------------8----
D|------------------------5-7s9------
G|-------5------------5-7------------
{end_of_tab}
B|-3-5s7---7-5-3--5s7----------------
e|-----------------------------------

[C] Raata bityo hera t[Am]imlai samjhera
[Dm] Dina dhalyo hera [C]timlai kalpera
[C] Joona le sodhyo priya k[Am]e bho bhanera
[Dm] Tara le gijyaidiyo [C]paagal thanera
[C] Swikarcha j[Dm]asle je bhan[C]eni
[C] Timile b[Dm]ahek je tha[C]neni

Play chords as above
Gulaaf le sodhyo uni ko hun bhanera
Bhane maya meri dil kholera
Nahunu tada timi ko ho bhanera
Bhannu cha dherai maya timilai bhetera

Ad Placement

Place your ad here. Contact us tunesnepal@gmail.com

Feel free to comment
Banner Ad

Place your ad here. Contact us tunesnepal@gmail.com

Image Here
THE TOP 50 Lyrics
THE TOP LYRICS

Click below to view the top 50 most popular lyrics

Top Lyrics
Image Here
THE TOP 50 Chords
THE TOP CHORDS

Click below to view the top 50 most popular chords

Top Chords
Image Here
THE TOP 50 Artists
THE TOP ARTISTS

Click below to view the top 50 most popular artists

Top Artists
Footer Top Ad

Place your ad here. Contact us tunesnepal@gmail.com